LETRA Y ACORDES DE LA CANCIÓN LLEGASTE TÚ DE JESSE Y JOY




C
Hundida yo estaba, ahogada en soledad

Em                                D#m
Mi corazón lloraba de un vacío total

Dm
Todo lo intenté

F
por donde quiera te busqué

Am                  G
Eras tú mi necesidad

C
Triste y desolada ya no pude soportar

Em                                     D#m
Mas desesperada era imposible de estar

Dm
Todo lo intente

F
por donde quiera te busqué

Am
Eras tú mi necesidad

F              G
Alce mi rostro y...


Coro


          C             F
Llegaste tú y todo cambio

          C                 F
Llegaste tú la esperanza triunfó

              Dm     G
Llegaste túuuuuu, volvi a nacer



E|---------------------------------|
B|------------13h15p13--12---------|
G|--12/17-------------------12-----|
D|-----------------------------12~-|
A|---------------------------------|
E|---------------------------------|

C
Por tanto tiempo quise encontrar la solución

Em                                          D#m
a ese gran vacío que llevaba en mi interior

Dm
Todo lo intente

F
por donde quiera te busqué

Am
Eras tú mi necesidad

F              G
Alce mi rostro y...


Coro (igual al pasado)


          C             F
Llegaste tú y todo cambió

          C                 F
Llegaste tú la esperanza triunfó

              Dm G
Llegaste túuuuuu, volvi a nacer


Solo... empieza antes de q termine el coro

e|-------------------------13--12--------------------------------13-15--|
B|-------13-------------13--------13----------13--------------13--------|
G|--9-10----10-9---9-10-----------------9--10----10-9----9-10-----------|
D|----------------------------------------------------------------------|
A|----------------------------------------------------------------------|
E|----------------------------------------------------------------------|


(se repite coro)


          C             F
Llegaste tú y todo cambió

          C                  F
Llegaste tú la esperanza triunfó

         Dm G             C
Llegaste tú volví a nacer


La letra y los acordes de la canción Llegaste Tú de Jesse y Joy fue redactada y compartida en este sitio web por:
Admin Web


Descargar PDF con letra y acordes de la canción Llegaste Tú de Jesse y Joy

INICIA SESIÓN PARA AGREGAR A FAVORITOS